Курск

Песня "Курск" с аккордами для гитары.

Добавить в сборник
Проигрыш 1:
E|------------------------------------------------|
H|------------------------------------------------|
G|-------5-----------4----------------------------|
D|----5-----5-----4-----4--------2--4--5--4--2--0-|
A|-3-----------2--------------2-------------------|
E|------------------------0-----------------------|

E|-------------------------------0--2--3--2--0----|
H|----------------------------0-----------------3-|
G|-------5-----------4----------------------------|
D|----5-----5-----4-----4--2----------------------|
A|-3-----------2----------------------------------|
E|------------------------------------------------|

Проигрыш 2:
E|------------------------------------------------|
H|------------------------------------------------|
G|-------5-----------4----------------------------|
D|----5-----5-----4-----4--------2--4--5--4--2--0-|
A|-3-----------2--------------2-------------------|
E|------------------------0-----------------------|

E|---------------------------|
H|---------------------------|
G|-------5-----------4-------|
D|----5-----5-----4-----4--2-|
A|-3-----------2-------------|
E|-------------------------0-|

Em       C         D       Em
Приказ ученья нам дали вчера,
И мы вышли в море с утра,
Ушли под воду, чуть царапая дно,
И под водой было все хорошо.

Проигрыш 2

Атомоход под названием Курск,
А на борту у нас атомный груз.
Своя торпеда ударила в нас,
Родные, вы помолитесь за нас.

Припев:

    C         G      D       Em C
    Мы не вернемся уже никогда,
    C          G          D        Em C
    Остаться здесь - это наша судьба.
    C        G    D        Em C
    Над нами 108 метров воды,
    C G    D          Em C
    118 остаться должны.

Проигрыш 1
Проигрыш 2

А наверху красота, полный штиль
И с лодки смыло последнюю пыль,
Но вдруг удар и все как в страшном кино,
И лодка камнем упала на дно.

Проигрыш 2

Морские волны качают цветы.
Осталось эхо от крика "спаси!".
Тревожно чайки летают вокруг,
Никто не дал нам спасательный круг...

Припев

Проигрыш 1
Проигрыш 2
Расскажи всем! не жалей аккордов :)

Похожие песни под гитару:

Добавить комментарий

Защитный код
Обновить