Цыганщина

Песня "Цыганщина" с аккордами для гитары.

Добавить
в сборник
Am	    G	 C		 
Нанэ цоха, нанэ гад,		 
F	  C       A7 
Мэ кинэл мангэ ё дад!  
Dm	     Am			 
Сыр выджява палором,		 
E7		Am 
Мэ кинэл мангэ ё ром! 
  
Что за блажь, что за напасть:	 
Как завижу лошадь,  
Сразу хочется украсть		 
Признак нехороший!  
 
Охладел даже к деньгам,   	 
К йогурту и книгам.  
А я, наверное, цыган		 
Или даже цыган.  
 
А вот бы конь меня унёс		 
По полям куда-то!  
А я в рубахе "Хьюго Босс", 	 
Красной от заката!  
 
Поваляюсь у костра, 		 
Как Алёша Пешков,  
И мне старик  Чудра		 
Будет врать неспешно.  
 
Заскочу в тенистый сад		 
За малиной сладкой.  
А там цыганка ждет - топлесс,	 
Дикая лошадка!  
 
Дерзкий нрав, в глазах - пожар.  
Но я тебя объезжу!  
Рассмеётся: "Ай, Зобар!" 	 
А я её зарежу!  
 
У нас, цыган, я вам скажу, 	 
Строго с этим делом!  
Это ж не лямур-тужур, 	 
Это ж, блин, чавела!  
 
И гитара запоёт, 		 
И я навзрыд заплачу, 
И поеду на восход		 
В джинсах от Версаче. 
 
Выйдет дядька из тумана		 
И нальёт мне "Каберне",  
Спросит как цыган цыгана: 	 
"Ай-на-нэ?" - Скажу: "На-нэ!"  
 
      Am 	Am/C       E 	  E/C	     F#	     B              
E||-----x---|-----x--|------x-|------x-|-----x---|-----x--|-3--2--0----------|| 
B||----x----|----x---|-----x--|-----x--|----x----|----x---|---------0--------|| 
G||---x-----|---x----|----x---|----x---|---x-----|---x----|----------0-------|| 
D||---------|--------|--------|--------|---------|--------|-------------4--2-|| 
A||-x-------|-x3-----|--------|--------|---------|-x------|------------------|| 
E||---------|--------|-x0-----|-x3-----|-x-------|--------|------------------|| 
 
       Am 	     Em        B7       
E||-----x-x-x-|------x-x--x-|---x0--|-----------------------|| 
B||----x------|-----x-------|--x----|-4--2--4--5------------|| 
G||---x-------|----x--------|--x----|------------4----------|| 
D||-----------|-------------|-------|--------------5--4--2--|| 
A||-x---------|-------------|-x-----|-----------------------|| 
E||-----------|-x0----------|-------|-----------------------|| 
 
E||--10--8--|--8---7--8---10--8---7--|--7--6--7--8---7---5--|| 
B||----------|-----------------------|----------------------|| 
    
E||-5-4-5-7-5--3---|-3-2-3--5-3---|-3- -10--8--8---7-6-7-|| 
B||----------------|------------5-|----------------------|| 
 
E||------------11-----11-12-11-12-13-12-10------|| 
B||-12-11-12-14--12-14--------------------13-12-|| 
G||---------------------------------------------|| 

E||-10-8--10-8-|-8-7--8-7-|-7--7---|-------------|----------|| 
B||------------|----------|--10-10-|-10-8--10-8--|-8-7--8-7-|| 
G||------------|----------|--------|-------------|----------|| 
 
E||-------|-----------|-10-8--|--8-7-8-10-8---7-|-7-6-7-8-7----| 
B||-7--7--|-----------|-------|-----------------|-----------10-| 
G||--9--9-|-9-8-6-8-9-|-------|-----------------|--------------| 
 
E|| ---------7------|-----------------|-10-8--|--8-7-8-10-8---7-| 
B|| -10-9-10---10-8-|-8-7-8-10-8------|-------|-----------------| 
G|| -----------------|-------------9--|-------|-----------------| 
 
E|-7-6-7-8-7---|---------7------|----------------------------------| 
H|----------10-|-10-9-10---10-8-|-8-7-8-10-8---------7-------------| 
G|-------------|----------------|------------9--9-8-9--9-8-6-8-9-9-| 
 
     alle=4x 	            alle=4x 
E||---------|-------------|-----------12-|-12--11--9--11--12-|| 
B||---------|-------------|-10--13--12---|-------------------|| 
G||-------9-|-9-8-6-8-9-9-|--------------|-------------------|| 
D||-7-10-9--|-------------|--------------|-------------------|| 
 
Nr. 4 alle=4x 		     alle=4x 
E||----------|-------------|------------12-|-12--11-9-11--12--|| 
B||----------|-------------|-10--13--12----|------------------|| 
G||-------9--|-9-8-6-8-9-9-|---------------|------------------|| 
D||-7-10-9---|-------------|---------------|------------------|| 
 
Nr. 4 alle=4x 	  4 alle=4x		     alle=4x 
E||--------------|-----------8----12--|-12--11--9--11--12-|-|| 
B||--------------|--7---8--10---12----|---------------------|| 
G||-----------9--|-8---9--------------|---------------------|| 
D||-7---10--9----|--------------------|---------------------|| 
 
E||-12-12--14-|-12-12--12-15-|-14-14--15-|-14-14--12--14--12--|| 
B||---------|----------------------------|--------------------||
    4x↓    
E||-11-12--|-12--11--9--11—12-12-|-----12---14--12--| 
B||---------|---------|----------|---13-------------| 
G|| -----------------------------|-14---------------| 
 
E||-----12--14--12--|-12--11--9--11—12-|-12-------------|| 
B||---12------------|------------------|---12-----------|| 
G||-12--------------|------------------|-----12--11---9-||
Расскажи всем! не жалей аккордов :)

Похожие подборы аккордов: