Колизей - Только Вспомни

Песня "Колизей - Только Вспомни" с аккордами для гитары.

Добавить в сборник
(музыка/слова - Д. Скиданенко/О. Ковалевская, Д. Скиданенко)

Intro
 
E||--------------2-----------|--------------2-----------|--------------2-----------|--------------0-----------|
B||--------0--------0--------|-----0-----------0-----0--|--------0--------0--------|-----0--------5-----4-----|
G||-----4-----4--------4-----|--4-----4-----------4-----|-----4-----4--------4-----|--4-----4--------4--4--4--|
D||--------------------------|--------------------------|--------------------------|--------------------------|
A||--------------------------|--------------------------|--------------------------|--------------------------|
E||--4--------------------0--|-----------0--------------|--4--------------------0--|-----------0--------------| 


E||--------------0-----------|--------------0----------|--------------------------|------------------------||
B||--------4--------4--------|-----4-----------4-------|--------2-----0-----------|------------------------||
G||-----4-----4--------------|--3-----3-----------3----|--------------1--1--------|-----4--------3---------||
D||--------------------------|-------------------------|-----2--------------------|--4-----4-----4---------||
A||--------------------------|-------------------------|--------------------------|------------------------||
E||--4-----------------0--2--|-----------2-------------|--0--------0--------0--2--|-----------2------------||


B      B       F#7   G#m     
   Ты хочешь, не шутя
          G#m  F#      E
   Быть пленницей дождя.
           D#        C#m         F#sus4 F#
   Два крыла больше не спасут тебя.
B     B       F#7   G#m 
   И тяжесть за спиной,
      G#m       E
   И холодно одной,
          F#sus4 F#
   Рай потерян, но...

Припев:

B                F#
   Только вспомни обо мне -
         C#m
   И развеется мрак,
    D#    E        F#
   Мы вдвоём подождём до утра.
B                 F#
   Только вспомни - в каждом сне
           C#m
   Ты со мной, пойми,
    D#
   Каждый миг
         E          F#
   Лишь ты одна приносишь свет в мой мир.
B       F# C#m D# E F#
   Мой мир.


B    B      F#7  G#m 
   Умолкли голоса,
      G#m    F#   E
   Померкли небеса
          D#      C#m             F#sus4 F#
   Для тебя, и печаль в твоих глазах.
B       B      F#7   G#m 
   Ты бродишь под луной,
       G#m        E
   Вокруг уже темно.
          F#sus4 F#
   Рай потерян, но...

Припев.

Бридж:

G#m F# E          F#
         Кажется только с неба,
G#m D# E           F#
         Что наша жизнь нелепа.
          C#m          D#
         Только что такое свет,
          E               F#
         Не поймёшь, не зная тени.
          C#m            D#
         Помни - вечной боли нет.
                 E                  F#
         Просто верь - ведь ты должна поверить мне…

Припев (2 раза).

Outro
 
E||--------------2-----------|--------------2-----------|--------------2-----------|--------------0-----------|
B||--------0--------0--------|-----0-----------0-----0--|--------0--------0--------|-----0--------5-----4-----|
G||-----4-----4--------4-----|--4-----4-----------4-----|-----4-----4--------4-----|--4-----4--------4--4--4--|
D||--------------------------|--------------------------|--------------------------|--------------------------|
A||--------------------------|--------------------------|--------------------------|--------------------------|
E||--4--------------------0--|-----------0--------------|--4--------------------0--|-----------0--------------| 

E||--------------0-----------|--------------0-----------|--------------0----------|--------------6-----------|--4----------------||
B||-----0--------5-----4-----|--------4--------4--------|-----4-----------4-------|--------5--------5--------|--5----------------||
G||--4-----4--------4--4--4--|-----4-----4--------------|--3-----3-----------3----|-----4-----4--------4-----|--4----------------||
D||--------------------------|--------------------------|-------------------------|--------------------------|-------------------||
A||--------------------------|--------------------------|-------------------------|--------------------------|-------------------||
E||-----------0--------------|--4-----------------0--2--|-----------2-------------|--0--------------------0--|-------------------||
Расскажи всем! не жалей аккордов :)

Похожие песни под гитару:

Добавить комментарий

Защитный код
Обновить