Ленинград - 007

Песня "Ленинград - 007" с аккордами для гитары.

Добавить
в сборник
Intro:

1||-----0-----------0----||
2||---1----4-----4--1----||
3||-2---------------2----||
4||-----------------2----||
5||-----------------0----||
6||----------------------||

Это всё обыгровки мизинцем Am

1||--5--7-7-7--7--5-5-5--5---8-8-8--8---7--7--7--||
2||--5--5-5-5--5--5-5-5--5---5-5-5--5---5--5--5--||
3||--5--5-5-5--5--5-5-5--5---5-5-5--5---5--5--5--||    2 раза
4||--7--7-7-7--7--7-7-7--7---7-7-7--7---7--7--7--||
5||----------------------------------------------||
6||----------------------------------------------||
                           
1||--5-/--8----/---12--11---11-11-11-11----11-/-12---||
2||--5-/--10---/---13--12---12-12-12-12----12-/-13---||
3||--5-/--9----/---14--13---13-13-13-13----13-/-14---||
4||--7-/--10---/---14--13---13-13-13-13----13-/-14---||
5||--------------------------------------------------||
6||--------------------------------------------------||

Можно ещё играть другой вариант на квинтах,звучащий более
ритмично, но менее выразительно:

    A5 H5       A5          C5         H5
1||----------------------------------------------||
2||----------------------------------------------||
3||----------------------------------------------||    2 раза
4||--7--9-9-9--9--7-7-7--7---101010-10--9--9--9--||
5||--7--9-9-9--9--7-7-7--7---101010-10--9--9--9--||
6||--5--7-7-7--7--5-5-5--5---8-8-8--8---7--7--7--||

    A5   C5       E5  D#5                     E5
1||--------------------------------------------------||
2||--------------------------------------------------||
3||--------------------------------------------------||
4||--7-/--10---/---14--13---13-13-13-13----13-/-14---||
5||--7-/--10---/---14--13---13-13-13-13----13-/-14---||
6||--5-/--8----/---12--11---11-11-11-11----11-/-12---||

Am   Am6-  Am6            Am6-
Я пришел сегодня пьяный в жопу
Am    Am6-        Am6         Am6-
Ты сказала - твои нервы скоро лопнут
Dm    Dm6-         Dm6        Dm6-
Ты сказала, что не можешь со мной,
Am    Am6-        Am6       Am6-
Ты сказала: - Алкоголик больной.
Dm    Dm6-       Dm6     Dm6-
Ты сказала: - Ухожу насовсем!
         E7
А мне плевать - Уходи, я агент "007"

Я сегодня пьяный в жопу
Ты сказала - твои нервы лопнут
Ты сказала, что не любишь меня
Ты сказала - я похож на свинья
Ты сказала, что уходишь опять
А мне плевать -  уходи, у меня есть "0,5"

  Am6-
E|-0-|---|---|---|
B|-0-|---|---|---|
G|---|-0-|---|---|
D|---|-0-|---|---|
A|---|---|---|---|
E|---|---|---|---|
   I  II  III IV

  Am6
E|---|-0-|---|---|
B|-0-|---|---|---|
G|---|-0-|---|---|
D|---|-0-|---|---|
A|---|---|---|---|
E|---|---|---|---|
   I  II  III IV

  Dm6-
E|-0-|---|---|---|
B|---|---|-0-|---|
G|---|---|-0-|---|
D|---|---|---|---|
A|---|---|---|---|
E|---|---|---|---|
   I  II  III IV

  Dm6
E|-0-|---|---|---|
B|---|---|---|---|
G|---|-0-|---|---|
D|---|---|---|---|
A|---|---|---|---|
E|---|---|---|---|
   I  II  III IV
Расскажи всем! не жалей аккордов :)

Похожие подборы аккордов: