Ленинград - Айседора

Песня "Ленинград - Айседора" с аккордами для гитары.

Добавить
в сборник
Интро:
G|--------------------------------------------|
D|---------------------0----------------------|
A|-0-2-3--0-2-3-3-2-3----3-3-2--2-------------|
E|--------------------------------------------|

G|--------------------------------------------|
D|-----0------0-0---0--2-0-0------------------|
A|-2-3----2-3-----3----------3--3-------------|
E|--------------------------------------------| - 2 раза
Рифф играется также как интро :)

Am Dm [Филл]
О, Айседора кричите шоферу, чтоб ехал назад,
О, Айседора оставьте дома свой белый шарф,
О, Айседора куда вы спешите, куда не боитесь успеть,
О, Айседора сегодня вам лучше дома побыть посидеть.


[рифф]
О, Айседора.

О, Айседора кричите шоферу, что жал тормоза,
О, Айседора скорее, скорее быстрее назад,
О, Айседора побудьте дома, примите гостей,
О, Айседора трудно уйти от судьбы своей.

[рифф]
О, Айседора.

Филл:
   Am
G|--------------------|
D|-2-2--0-0-----------|
A|-----------3-3--2-2-|
E|--------------------|
Расскажи всем! не жалей аккордов :)

Добавить комментарий

Защитный код
Обновить