Ленинград - Дачники

Песня "Ленинград - Дачники" с аккордами для гитары.

Добавить
в сборник
[Рифф]

Am [Fill 1]
Я подыхаю на работе
Am [Fill 1]
Потом бухаю, потом в блевоте
Am [Fill 1]
Домой приду, а дома - ты,
Am [Fill 2]
Яичница, телек, герани цветы.

Dm
Вот будет лето -
Am
Поедем на дачу
Dm
В руки лопату -
E
Хуячим, хуячим.


[Рифф]
ДА-ЧА!!!

Я подыхаю на работе,
Потом бухаю, потом в блевоте
И нету в жизни ни хуя
Этого, как его... о! счастья

Вот будет лето -
Поедем на дачу
В руки лопату -
Хуячим, хуячим.

ДА-ЧА!!!

Рифф:
Am
e |-----------------|
B |-----------------|
G |-----------------|
D |-----------------|
A |----7-6-5--------|
E |-5--------8-7-6--|

Fill 1:

Am
e |-------5---------|
B |-------5---------|
G |-------5---------|
D |-------7---------|
A |-------7---------|
E |-8-7-6-5---------|

Fill 2:

Am Dm
e |--------5--------|
B |--------6--------|
G |--------7--------|
D |--------7--------|
A |--------5--------|
E |-5-8-5-----------|
Расскажи всем! не жалей аккордов :)

Похожие подборы аккордов: