Ленинград - Ду ю лав ми

Песня "Ленинград - Ду ю лав ми" с аккордами для гитары.

Добавить
в сборник
[рифф]

Hm
У тебя глаза такие,
Hm Em
Обалденные глаза,
Em Hm
Подыхаю от любви я,
G F#
Отказали тормоза,
Вот влюбился, все п.здец,
Так что сводит брюхо,
Думал ангел ты с небес,
Оказалась шл.ха.

Em Hm
Дай мне, дай мне, дай мне, дай мне, дай любви,
Em F# G
Я кричу тебе, тебе, тебе, бе: дую ю лав ми!

[рифф]

Между бабой и деньгами
Для меня нет разницы,
Говоришь: "Люблю тебя!"
А в ответ - "Иди ты в задницу",
Нож по вене поперек,
Поперек любви моей,
Сердце бьется об висок,
Словно в клетке соловей.

[соло]

Дай мне, дай мне, дай мне, дай мне, дай любви,
Я кричу тебе, тебе, тебе, бе: дую ю лав ми!
Дай мне, дай мне, дай мне, дай мне, дай любви,
Я кричу тебе, тебе, тебе, бе: дую ю лав ми!

[аутро]

[соло]
Дай мне, дай мне, дай мне, дай мне, дай любви,
Я кричу тебе, тебе, тебе, тебе: дую ю лав ми!

Рифф играется следующим макаром:

Hm
e|-----------------------------------------|
B|-----------------------------------------|
G|-----------------------------------------|
D|------3-4-3-4-----3-4-3-4-----3-4-3-4----|
A|-2-6----------2-6---------2-6---------2--|
E|-----------------------------------------|

А соло вот так:

Hm Em
e|-----------------------------------------|
B|-----------------------------------------|
G|-----------------------------------------|
D|-----------------------------------------|
A|---2-2-2-4---2-2----2-2-2-4--------------|
E|-2---------5------2---------5-3----------|
Hm G F#
e|-----------------------------------------|
B|-----------------------------------------|
G|-----------------------------------------|
D|---2-2-2-4---2-2--5-5-5-7-5-4------------|
A|-2---------5-----------------------------|
E|-----------------------------------------|

Аутро:

Hm
e|-----1^2^1^2--|
B|---3----------|
G|--------------|
D|--------------| 4 раза
A|-2------------|
E|--------------|
Расскажи всем! не жалей аккордов :)

Добавить комментарий

Защитный код
Обновить