Ленинград - Звуковое письмо

Песня "Ленинград - Звуковое письмо" с аккордами для гитары.

Добавить
в сборник
Вступление:
Am(V) G(III) F(V) E(IV)


Am(V) G(III) F(V) E(IV) Am
Ты искала меня ночами тёмными,
G F E Am
Искала меня дворами темными,
G F E
Искала меня искала
G F E
Зачем? Вот он я!

Я такой как во сне,
Такой как ты в альбомах,
рисовала меня
Е! Е!

Импровизация на духовую тему: (2 раза)

e ------------------------------------
B ---------0------1--0-h-1--3--1-0-1--
G -2----2-------2---------------------
D ----2-------2-----------------------
A (0)---------------------------------
E ------------------------------------

e --------------------------0--0------
B ---------0------1--0-h-1--0--0------
G -2----2-------2-----------1--1------
D ----2-------2-------------2--2------
A (0)-----------------------2--2------
E --------------------------0--0------


Ты искала меня ночами-чами,
Ты искала меня ночами-чами,
Чами-чами-чами-чами-чами-чами-чами-чами,
Чами-чами-чами-чами-чами Е!

Я такой как во сне,
Такой как ты в альбомах,
рисовала меня
Е! Е!


Я такой как во сне,
Такой как ты в альбомах,
рисовала меня
Е! Е!


Ты искала меня искала меня,
Сама не знала меня искала,
Ты искала меня искала меня,
Сама не знала меня искала,

Я такой как во сне,
Такой как ты в альбомах,
рисовала меня ЕЕ
Е! Е!

Я такой как во сне,
Такой как ты в альбомах,
рисовала меня
Е! Е!
Расскажи всем! не жалей аккордов :)

Похожие подборы аккордов: