Ленинград - Злые пули

Песня "Ленинград - Злые пули" с аккордами для гитары.

Добавить
в сборник
Am
Над головами пули-пули,
Am E Am
Пули-пули все летят
Am
И о любви нам, о любви нам,
Am E Am
О любви нам говорят.

F
Вот полюбила пуля парня -
G
Аж до сердца проняла
G рифф
И он ушел с ней, не смотря,
Am E Am
Что дома барышня ждала.

Над головами пули-пули,
Пули-пули все летят
И о любви нам, о любви нам,
О любви нам говорят.

А пуля любит, пуля любит
С поцелуйчиком, взасос.
Будь ты хоть парень, хоть девчонка
Иль почти молокосос.

Аутро.
Интро:
Am
e|----------------|
B|----1-3-3b4-----|
G|-2--------------|
D|----------------|
A|----------------|
E|----------------|

G рифф (афигенный рифф :)
G Am
e|------------------|
B|---------5---5----|
G|---------5---5----|
D|---------7---7----|
A|---------7---7----|
E|-3-3-4-5---5------|

Аутро:
Am Dm
e|---------------------------------1------------|
B|----1b2-----1-3b4-1---1----------3------------|
G|-2--------2---------2---2-1-0----2------------|
D|---------------------------------0------------|
A|----------------------------------------------|
E|----------------------------------------------|
Расскажи всем! не жалей аккордов :)

Похожие подборы аккордов: