Ленинград - Колокола

Песня "Ленинград - Колокола" с аккордами для гитары.

Добавить
в сборник
Cm Fm
Стучат колеса под вагоном,
G Cm
Полжизни промотался я,
Мой поезд подошел к перрону,
На нем любимая моя.
Fm Cm
Стоит и плачет, и не верит,
Fm Cm
Что снова нас судьба свела,
Cm Fm Cm
Эй, проводник, открой все двери,
G Cm
Пускай звонят колокола,
Эй, проводник, открой все двери,
Пускай звонят колокола.

Ты так любила эту песню,
Я на гитаре тебе пел,
И вот тогда по малолетке,
Не в ту компашку залетел,
И вот ты плачешь на перроне,
Все это время ты ждала,
Эй, проводник, открой все двери,
Пускай звонят колокола,
Эй, проводник, открой все двери,
Пускай звонят колокола.

[Соло]

И вот ты плачешь и не веришь,
Все это время ты ждала,
Эй, проводник, открой все двери,
Пускай звонят колокола,
Эй, проводник, открой все двери,
Пускай звонят колокола.

Колокола, колокола, колокола, колокола,
Колокола, колокола, КОЛОКОЛА!

Интро:

Cm Csus2 Cm Gadd11
e|-3-3--3-3--3-3--3-3--3-3--3-3--3-3--3-3-|
B|-4-4--3-3--4-4--3-3--4-4--3-3--4-4--3-3-|
G|-5-5--5-5--5-5--4-4--5-5--5-5--5-5--4-4-|
D|-5-5--5-5--5-5--5-5--5-5--5-5--5-5--5-5-|
A|-3-3--3-3--3-3--3-3--3-3--3-3--3-3--3-3-|
E|-3-3--3-3--3-3--3-3--3-3--3-3--3-3--3-3-|


Соло (настоящий гитарный соляк):

e|----------|
B|-6/8-8-8--|
G|----------|
D|----------|
A|----------|
E|----------|

e|----------------------------------------|
B|----8-8----8-8----8-8----8-8-/6-5-4-3-4-|
G|-6/7----6/7----6/7----6/7---------------|
D|----------------------------------------|
A|----------------------------------------|
E|----------------------------------------|

e|------------------------------8-7-6-10-9-8-6-|
B|----7-7----7-7----7-7----7-7-----------------|
G|-6/7----6/7----6/7----6/7--------------------|
D|---------------------------------------------|
A|---------------------------------------------|
E|---------------------------------------------|

e|----------------------------------------------|
B|-8-8-8----8-8----8-8----8-8----8-8-/6-5-4-3-4-|
G|-------6/7----6/7----6/7----6/7---------------|
D|----------------------------------------------|
A|----------------------------------------------|
E|----------------------------------------------|

e|-------------------------------------------|
B|----4-4----5-5----6-6----7-7--7/8--8-8-7-8-|
G|-2/3----3/4----4/5----5/6-----6/7----------|
D|-------------------------------------------|
A|-------------------------------------------|
E|-------------------------------------------|
Расскажи всем! не жалей аккордов :)

Похожие подборы аккордов: