Ленинград - Х#й в пальто

Песня "Ленинград - Х#й в пальто" с аккордами для гитары.

Добавить в сборник
Fm
Я приполз домой
G#
И звоню в звонок,
Fm
Блюю, шатаюсь,
G#
Насквозь промок.
 
Fm
А ты мне из-за двери:
G#
- А это, бля, кто?
Fm
А я ответил:
G#
- Твой хуй в пальто!

Рифф Два (играется 4 раза)
(Че-Че-Че-Чекитаут-Йо!)

Рифф Один (играется или весь куплет
или как вступление к нему - раза 4)

Ползу домой, Ползу домой,
Звоню в звонок,
Я весь промок!

А ты мне из-за двери:
- А это, бля, кто?
А я ответил:
- Твой хуй в пальто!

Рифф Два (играется 4 раза)
Бас Рифф (играется 1 раз)
Трубное соло (играется 3-4 раз)

Я хуй в пальто!
Рифф Дыва (играется 4 раза)

Рифф Один играется таким образом:
Fm G#
е|----------------------------------------|
B|-----1-------1-------1------------------|
G|---1---1---1---1---1---1-3-1-4-1--------|
D|-3-------3-------1----------------------|
А|----------------------------------------|
Е|----------------------------------------|
(после каждой сыгранной ноты надо приглушать
струну немного отпуская палец левой руки)

Рифф Два играется так (или с вариациями :) )
Fm G#
е|----------------------------------------|
B|----------------------------------------|
G|------------------------1-3-1-4-1-------|
D|-3-3-3--3-3-3-3--1-1--1-----------------|
А|----------------------------------------|
Е|----------------------------------------|

Трубное соло на гитаре, кажется, выглядит так:
Fm G#
е|--------------------------------------------|
B|--------------------------------------------|
G|--------------------------------------------|
D|------------3---3---3-----------------------|
А|-------1--3---3---3----3-1-----1--3-1-----1-|
Е|-1-3-4---------------------4-3--------4-3---|

Бас Рифф:
Fm G#
е|--------------------------------------------|
B|--------------------------------------------|
G|--------------------------------------------|
D|--------------------------------------------|
А|-----3--------3--------3----1---2-----------|
Е|-1-4---4--1-4---4----4---4----4---4---------|

Расскажи всем! не жалей аккордов :)

Похожие песни под гитару: