Ленинград - Горький сон

Песня "Ленинград - Горький сон" с аккордами для гитары.

Добавить в сборник
 Am                  Am 
Я так люблю, когда большой,
G                           E
 Когда большой и толстый хуй в тебе. 
 Я так хочу, чтоб был он мой, 
 Но я с утра уже ни "ме" ни "бе"!

Уже ни "бе" ни "ме"!
Уже ни "бе" ни "ме"!

    Am
E|---0---0---0---0-
B|---1---1---1---1-
G|---2---2---2---2-
C|-----------------
A|-0-------0-------
E|-----0-------0---

    G
E|---3---3---3---3-
B|---3---3---3---3-
G|---4---4---4---4-
C|-----------------
A|-----5-------5---
E|-3-------3-------

    E
E|---0---0---0---0-
B|---0---0---0---0-
G|---1---1---1---1-
C|-----------------
A|-----2-------2---
E|-0-------0-------
Расскажи всем! не жалей аккордов :)

Похожие песни под гитару:

Добавить комментарий

Защитный код
Обновить