Синекдоха Монток - Русская книга мертвых

Песня "Синекдоха Монток - Русская книга мертвых" с аккордами для гитары.

Добавить
в сборник
Каподастр: 1 лад 
Аппликатуры аккордов: 
Db: (x50060) 
Bbm: (x02010) 
Fm(x32000) 
Ab (3x0000) 
Bbm*: (x32010) 
Eb: (5x0070) 
Eb*: (2x0010) 
Cm: (7x0670) 
Cm*: (7x0000) 


Riff 1: 
e|--------0------0------0-------0-------0----------0----------------------| 
B|---1------1------1------1--------1-------1------------------------------| 
G|-----0------0------0------0--------0--------0---------------------------| 
D|------2------0------0-------0--------0--------0-------------------------| 
A|---3------2------0------------------------------------------------------| 
E|------------------------3--------2-------2------------------------------| 

Riff 2: 
e|--------8p0-— 7p0----------------------0-------------0----------------------| 
B|---8-------------------8---------0--------------0----------------------------| 
G|-----0------0------0------0--------0------0-------0-----0--------------------| 
D|------0------0------0-------0--------0------0-------0-----0------------------| 
A|-----------------------------------------------------------------------------| 
E|---0----0------0-------0---------3--------------7----------------------------| 

Db Bbm Fm 
Тебе понравится моя страна, 
Ab Db 
Хотя, ты ей всем сердцем не нравишься. 
Bbm Fm 
На дне дня явилась Мария 
Ab 
Со звуками праздника. 
Db Ab 
Явилась, в чем мать родила, 
Bbm 
Словно буквою А, 
Fm Ab 
Буквою Я. 

Riff 1: Eb* 
Лишь девичьих чувств азбукой. 
Cm Eb* 
Ааа-а (x3) 

Riff 2 (x3) 


Riff 2: 
Понимай это со мной, 
Понимай со мною. 
Я хочу видать глаза, 
Своих героев. 
А если героинь, 
Eb 
То что-нибудь другое. 
Cm 
Принимай это. 

Riff 2: 
Я перепутаю слова, 
Все слова другие. 
Помолитесь за меня, 
Чтобы стыдно было. 
Eb 
Если есть места - 
Cm 
Усади меня за стол. 
Ab Cm* 
Я узнаю лица, 

Riff 1: 
И полностью стану тобою: 
Родина в родинках. 
Cm 
Парады, позоры. 
Eb* 
Матери ждут 
Cm 
В метелях узорах, 
Eb* Cm Riff 1: 
Лебединого чуда окрестного, 
Царства небесного.
Расскажи всем! не жалей аккордов :)

Похожие подборы аккордов: