Шурале - Эх, тала, тала

Песня "Шурале - Эх, тала, тала" с аккордами для гитары.

Добавить в сборник
--------------------------|----------------------------|
--------------------------|----------------------------|
--------------------------|----------------------------|
--------------------------|--1--1---------------------|
-------------6------------|---------3-----------------|
--8--6--8-----3--2--1--|--------------1--2--------|

--------------------------|----------------------------|
--------------------------|----------------------------|
--------------------------|----------------------------|
--------------------------|----------------------------|
-------------6------------|--------------------1------|
--8--6--8-----3--2--1--|--1--3--1--4--1----------| повтор

Куплет (instrumental):

Cm7 | Cm7 | Gm7 Fm7 | Gm7 Cm7 : || 4 раза

Куплет (со словами):

Cm7
Сандугачлар ияләшкән
Су эчәргә миләштән.
Gm7 Fm7
Кайгыларым бетәр иде
Gm7 Cm7 
Сине күреп сөйләшсәм.

Припев:

Cm7
Эх, тала, тала, тала,
Тала ике беләгем.
Gm7 Fm7
Нигә тала, нигә яна
Gm7 Cm7 
Икән минем йөрәгем?

Cm7
Агыйлделгә басма салдым
Каенын сайлап кына.
Gm7 Fm7
Яннарына барыр идем
Gm7 Cm7 
Кош булып сайрап кына.

Cm7
Эх, тала, тала, тала,
Тала ике беләгем.
Gm7 Fm7
Нигә тала, нигә яна
Gm7 Cm7 
Икән минем йөрәгем?


2 куплет:

Cm7
Агыйдел суы тирбәлә
Уртасында сал булса.
Gm7 Fm7
Суга салсаң, калкып чыгар,
Gm7 Cm7 
Безгә насыйп яр булса

Припев:
Cm7
Эх, тала, тала, тала,
Тала ике беләгем.
Gm7 Fm7
Нигә тала, нигә яна
Gm7 Cm7 
Икән минем йөрәгем?
Расскажи всем! не жалей аккордов :)

Похожие песни под гитару:

Комментарии  

Даниил
0 # Даниил 06.10.2018 15:46
А какой бой или перебор?
Ответить | Ответить с цитатой | Цитировать