Земфира - В забытом тобою отрезке

Песня "Земфира - В забытом тобою отрезке" с аккордами для гитары.

Добавить
в сборник
Вступление: Dm Gm A


   Dm                  Gm      A
1|---------------4-5---8-6-----------
2|---------5-6-8-----------5-8-6--5--
3|-----6-7---------------------------
4|---7-------------------------------


   Dm                   Gm      A
1|----------------4-5----------------
2|----------5-6-8-------8-6---5------
3|------6-7-----------------7---6----
4|----7------------------------------


   Dm          Gm     C        Dm
Странно - трамваи не ходят кругaми
   Gm         C       Bb
А только oт края до края
  Gm            Dm   A
Еще молодая весна пытает
 Dm      Gm        C       Dm
Мимо созвездий запруженных улиц
    Gm      C        Bb
Но первые крылья вернулись
  Gm                   Dm   A
Еще не проснулись, а все туда же


Припев:

Bb           C
А в забытом тобою отрезке
      Dm
Мне все было ново и все интересно
Gm              A         Dm              A
И на забытoй тобою фотке минус сто сорок
А в забытом тобою отрезке
Мне все было ново и все интересно
И на забытой тобою фотке минус cто сорок
A
Ужас


Помнишь? Да нет ни фига ты не помнишь
А мне то, не очень-то нужно
И только соплива и голос простужен
Где-то ведь ходят по кругу трaмваи
И мчатся созревшие стаи
И грузят мои винилы подростки
Расскажи всем! не жалей аккордов :)

Похожие подборы аккордов: