Эдуард Хуснутдинов - Судьба

Песня "Эдуард Хуснутдинов - Судьба" с аккордами для гитары.

Добавить
в сборник
Вступление:
F#m
E|-5-----5-----5---5-----5-----5---5-----5-----5---5-----5-----5---|
H|---7-----7-----7---7-----7-----7---7-----7-----7---7-----7-----7-|
G|-----6-----6---------6-----6---------6-----6---------6-----6-----|
D|-----------------------------------------------------------------|
A|-----------------------------------------------------------------|
E|-----------------------------------------------------------------|

  F#m                             Hm                                
E|-5-----5-----5---5-----5-----5---7-----7-----7---7-----7-----7---|
H|---7-----7-----7---7-----7-----7---7-----7-----7---7-----7-----7-|
G|-----6-----6---------6-----6---------7-----7---------7-----7-----|
D|-----------------------------------------------------------------|
A|-----------------------------------------------------------------|
E|-----------------------------------------------------------------|
Погоняю       лошадей       по      снегу      белому  
  C#                              F#m                               
E|-4-----4-----4---4-----4-----4---5-----5-----5---5-----5-----5---|
H|---6-----6-----6---6-----6-----6---7-----7-----7---7-----7-----7-|
G|-----6-----6---------6-----6---------6-----6---------6-----6-----|
D|-----------------------------------------------------------------|
A|-----------------------------------------------------------------|
E|-----------------------------------------------------------------|
  И жалею     лишь     о     том,     что   не   сделано  
    F#                             Hm                                 
E|:-6-----6-----6---6-----6-----6---7-----7-----7---7-----7-----7---|
H|:---7-----7-----7---7-----7-----7---7-----7-----7---7-----7-----7-|
G|:-----6-----6---------6-----6---------7-----7---------7-----7-----|
D|:-----------------------------------------------------------------|
A|:-----------------------------------------------------------------|
E|:-----------------------------------------------------------------|
     Лихо     кружится        метель         зимним       вечером,  
   C#                             F#m                                 
E|-4-----4-----4---4-----4-----4---5-----5-----5---5-----5-----5---:|
H|---6-----6-----6---6-----6-----6---7-----7-----7---7-----7-----7-:|
G|-----6-----6---------6-----6---------6-----6---------6-----6-----:|
D|-----------------------------------------------------------------:|
A|-----------------------------------------------------------------:|
E|-----------------------------------------------------------------:| - 2 раза
         Снег     ложится        на        ладонь       так     доверчиво  

Завела дорога в степь, ни души кругом,
Я согласен всё стерпеть, только что потом?
/Я ведь знаю наперёд, чем всё кончится -
Опустеет вдруг душа и надломится/ - 2 раза

Отпущу я лошадей и сломаю плеть,
Я устал их погонять, а они лететь
/Разорвал всю душу в кровь, раны рваные,
Мне б увидеть лишь тебя, долгожданную/ - 2 раза

Проигрыш:
  Hm                              F#m                               
E|-7-----7-----7---7-----7-----7---5-----5-----5---5-----5-----5---|
H|---7-----7-----7---7-----7-----7---7-----7-----7---7-----7-----7-|
G|-----7-----7---------7-----7---------6-----6---------6-----6-----|
D|-----------------------------------------------------------------|
A|-----------------------------------------------------------------|
E|-----------------------------------------------------------------|
   C#                             F#m                                
E|-4-----4-----4---4-----4-----4---5-----5-----5---5-----5-----5---|
H|---6-----6-----6---6-----6-----6---7-----7-----7---7-----7-----7-|
G|-----6-----6---------6-----6---------6-----6---------6-----6-----|
D|-----------------------------------------------------------------|
A|-----------------------------------------------------------------|
E|-----------------------------------------------------------------|
  Hm                              F#m                               
E|-7-----7-----7---7-----7-----7---5-----5-----5---5-----5-----5---|
H|---7-----7-----7---7-----7-----7---7-----7-----7---7-----7-----7-|
G|-----7-----7---------7-----7---------6-----6---------6-----6-----|
D|-----------------------------------------------------------------|
A|-----------------------------------------------------------------|
E|-----------------------------------------------------------------|
   C#                             F#m               D#               
E|-4-----4-----4---4-----4-----4---5-----5-----5----6-----6--------|
H|---6-----6-----6---6-----6-----6---7-----7-----7--8-----8--------|
G|-----6-----6---------6-----6---------6-----6---------8-----8-----|
D|-----------------------------------------------------------------|
A|-----------------------------------------------------------------|
E|-----------------------------------------------------------------|

Переход на 1 тон выше (G#m)
  G#m                             C#m                                
E|-4-----4-----4---4-----4-----4---4-----4-----4---4-----4-----4---|
H|---4-----4-----4---4-----4-----4---5-----5-----5---5-----5-----5-|
G|-----4-----4---------4-----4---------6-----6---------6-----6-----|
D|-----------------------------------------------------------------|
A|-----------------------------------------------------------------|
E|-----------------------------------------------------------------|
   Поутру       округу       всю       снегом        замело,   
   D#                             G#m                                
E|-3-----3-----3---3-----3-----3---4-----4-----4---4-----4-----4---|
H|---4-----4-----4---4-----4-----4---4-----4-----4---4-----4-----4-|
G|-----3-----3---------3-----3---------4-----4---------4-----4-----|
D|-----------------------------------------------------------------|
A|-----------------------------------------------------------------|
E|-----------------------------------------------------------------|
        Мне  не  выбраться     теперь  -  вновь    не    повезло  
    G#                             C#m                                
E|:-4-----4-----4---4-----4-----4---4-----4-----4---4-----4-----4---|
H|:---4-----4-----4---4-----4-----4---5-----5-----5---5-----5-----5-|
G|:-----5-----5---------5-----5---------6-----6---------6-----6-----|
D|:-----------------------------------------------------------------|
A|:-----------------------------------------------------------------|
E|:-----------------------------------------------------------------|
Посмеялась        надо        мной        горькая     судьба, 
  D#                              G#m                                
E|-3-----3-----3---3-----3-----3---4-----4-----4---4-----4-----4---:|
H|---4-----4-----4---4-----4-----4---4-----4-----4---4-----4-----4-:|
G|-----3-----3---------3-----3---------4-----4---------4-----4-----:|
D|-----------------------------------------------------------------:|
A|-----------------------------------------------------------------:|
E|-----------------------------------------------------------------:| - 2 раза
 Видно, в этом     всё      же      есть      и      моя вина  

Погоняю лошадей по снегу белому
И жалею лишь о том, что не сделано
/Лихо кружится метель зимним вечером,
Снег ложится на ладонь так доверчиво/ - 2 раза

Расскажи всем! не жалей аккордов :)

Похожие подборы аккордов:

Добавить комментарий

Защитный код
Обновить