NRKTK - Биеннале Каждый День

Песня "NRKTK - Биеннале Каждый День" с аккордами для гитары.

Добавить в сборник
intro:
G|-------------------
D|------7------------
A|-5-5---------------
E|---------7-7-7-5-5-
(x4)

G|---------------------|-------------------
D|------7-------------|------7------------
A|-5-5----------------|-5-5---------------
E|---------7-7-7-5-5-|---------7-7-7-5-5-

G|---------------------|-------------------
D|---------------------|-------------------
A|------9---------9---|------8---------8--
E|-7-7----7-7-7----7-|-6-6----6-6-6----6-
(х2)

verse:
G|-------------------
D|------7------------
A|-5-5---------------
E|---------7-7-7-5-5-
(x8)

pre-chorus:
G - E - G - E
G - G - G - G

chorus:
E - G5 - D5 - D5
Bm5 - Bb5 - D5
(x2)

E: 022100
G: 355433
G5: 355xxx
D5: x577xx
Bm5: x244xx
Bb5: x133xx

ооо если вы - художник, значит наркоман 
ваш талант ничтожен, ваш талант - обман 
и пока вам грустно 
и пока вам лень 
на вокзале и на рынке 
биеннале каждый день 

биеннале каждый день 
биеннале каждый день 
биеннале каждый день 
биеннале каждый день 

ооо два перформера танцуют 
у киоска с дивиди 
солнце празднично бликует 
в куполах на их груди 
и пока вам грустно 
и пока вам лень 
в магазине и подъезде 
биеннале каждый день 

биеннале каждый день 
биеннале каждый день 
биеннале каждый день 
биеннале каждый день 

если вы - художник, значит вас положат 
в Кащенко и Мавзолей 

биеннале каждый день 
биеннале каждый день 
биеннале каждый день 
биеннале каждый день 
биеннале каждый день 
биеннале каждый день
Расскажи всем! не жалей аккордов :)

Похожие песни под гитару:

Добавить комментарий

Защитный код
Обновить