Sakura - Сталкер

Песня "Sakura - Сталкер" с аккордами для гитары.

Добавить в сборник
Am C
Долгими беглыми тропами неба стекали звезды,
F Dm
Добрыми смелыми трипами где-то ловили воздух...
Am C
Где? Где?
F Dm
Где дороги испытали наши ноги льдом...

Am C
Лопнули стены, взорвались, порами порох вдыхали -
F Dm
Самые первые самое верное открывали...
Am C
Нет! Нет!
F Dm G#
Нет назад дороги, стало быть вперед...

Am
Что же здесь?
Am
Тоже местами волшебными стали...
C G F Am
Плыли и шли, хотели и могли
A C
За все умереть...
Am
Но по спирали истории встали.
C G F Am
Смыкая круги, спасись и сохранись...

Проигрыш:
1||---------------------------||
2||--5-5--5--5--6----6-5--||
3||--5-5--5--5--5----5-5--||

F Dm Am C
F Dm

Черными, белыми, кем только не были, не устали
Страхи оставить, надежду заставили слабым...
Где? Где?
Где рассветы вечно говорят тебе "Привет!"

Все невозможное сделали своими руками,
Менялись вещами, встречали речами храбрых...
Нет! Нет! Нет!..
Мне не перекрасить небо в серый цвет...

Что произошло здесь?
Мы тоже местами волшебными стали...
Плыли и шли, хотели и могли
За все умереть...
Но по спирали истории встали.
Смыкая круги, спасись и сохранись...

Проигрыш:
E||--------5--------------5----------|
B||-----------5--------------5-------|
G||-----5--------5-----5--------5----|
D||----------------------------------|
A||--0--------------0----------------|
E||----------------------------------|


----------5-------------------7---5-------|
--------------5-----------------------5---|
------5-----------5-------5---------------|
--3-------------------3-------------------|
------------------------------------------|
------------------------------------------|


----------3-------------------3-----------|
--------------5-------------------5-------|
------5-----------5-------5-----------5---|
------------------------------------------|
--0-------------------0-------------------|
------------------------------------------|



--------3--------------0-----|
-----------5-------------3---|
-----5--------5-----3------2-|
--3--------------0-----------|
-----------------------------|
-----------------------------|

Am
По частям почести брали,
F
Целиком, бля, себя отдавали,
Am
Сквозь пыль и снег 
F Dm
На свет смотрели.
Am
По ветрам к берегам гнали,
F
Вовремя не осознали,
Am
Что мы на дне,
F G#
Но нет слова "нет"!

Проигрыш: Am F Dm G

Am
И не изменить 
F
Себе и остаться нам 
Dm G
Пора самими собой.
Am
Как ни крути, 
F
Никому не услышать слов 
Dm G
"Пора домой..."

Am
Даже не важно с кем
F
Ты видел все это, вам 
Dm G
Пора днем с огнем
Am
И, не вскрывая вен,
F Dm
На этот мир посмотреть
Dm G
Под углом...
Am G

Концовка:
F Dm G Am
F Dm G Am
Расскажи всем! не жалей аккордов :)

Похожие песни под гитару:

Добавить комментарий

Защитный код
Обновить