Аквариум - Ангел дождя

Песня "Аквариум - Ангел дождя" с аккордами для гитары.

Добавить в сборник
Каподастр на 2-м ладу
 
Вступление:
E-12-12-12-12-
B-------------
G-------------
  Am      C       Dm    F E
E-0----0--0----0--1-0-----1-0-
B----1-------0-------3-1-0----
G---2-2-----2-2---------2-----
D-----------------------------
  Am      C       Dm     F   E
E-0----0--0----0--5-3-1-0------
B----1-------0-----------3-1-0-
G---2-2-----2-2----------------
D------------------------------
 
          Am
Я знаю места,
Dm               Am
  Где в тени золотой
Dm          Am Dm               F E
  Бредут янычары посмертной тропой;
             Am
Где дом покорён,
Dm               Am
  Где солёный забор,
Dm                  Am
  Где проповедь вишням
Dm           F E
  Читает прибор.
 
Проигрыш:
  Am      C       Dm    F E
E-0----0--0----0--1-0-----1-0-
B----1-------0-------3-1-0----
G---2-2-----2-2---------2-----
D-----------------------------
  Am      C       Dm     F   E
E-0----0--0----0--5-3-1-0------
B----1-------0-----------3-1-0-
G---2-2-----2-2----------------
D------------------------------
 
Я знаю места,
Где цветёт концентрат -
Последний изгнанник,
Не ждущий заплат;
Где роза в слезах,
А калган - в серебре;
Где пляшут налджорпы
На заднем дворе...
 
F        G        C     Am
Ежели в доме расцвёл камыш -
F           G       C
 Значит, в доме разлом;
  Dm               Am
А ежели череп прогрызла мышь -
 Dm               F E
Время забыть о былом.
 F             G         C         Am
Может быть, в наших сердцах пляшут зайчики,
 F            G       C
Может быть - воют волки;
   Dm                   Am
А, может быть, ангел дождя шумит
  Dm               F E
Время снимать потолки.
 
Проигрыш: C Am Dm F G | C Am Dm F E

  Am      C       Dm    F E
E-0----0--0----0--1-0-----1-0-
B----1-------0-------3-1-0----
G---2-2-----2-2---------2-----
D-----------------------------
  Am      C       Dm     F   E
E-0----0--0----0--5-3-1-0------
B----1-------0-----------3-1-0-
G---2-2-----2-2----------------
D------------------------------
 
  Am
Ски-ла-я-а...
  C
Ски-ла-я-а...
  Dm
Ски-ла-я-а...
  F    E
Ски-ла-я...
  Am
Ски-ла-я-а...
  C
Ски-ла-я-а...
  Dm
Ски-ла-я-а...
  F    E
Ски-ла-я...
  Am
Ски-ла-я-а...
  C
Ски-ла-я-а...
  Dm
Ски-ла-я-а...
  F    E
Ски-ла-я...
  Am
Ски-ла-я-а...
  C
Ски-ла-я-а...
  Dm
Ски-ла-я-а...
  F    E   A(V)
Ски-ла-я..

Расскажи всем! не жалей аккордов :)

Похожие песни под гитару:

Добавить комментарий

Защитный код
Обновить