Пародии - Кино (Дети проходных дворов)

Песня "Пародии - Кино (Дети проходных дворов)" с аккордами для гитары.

Добавить в сборник
Вступление:
 
1-11-11-11-9-----------------------------------
2----------------5-8---------------------------
3-------------5----------7-12-----5-9--10--9-7-
4---------------------9--------7---------------
5----------------------------------------------
6----------------------------------------------

1----------------------------------------------
2----5-8---------------------------------------
3-5----------7-12------5-9--10-9~12------------
4---------9---------7--------------------------
5----------------------------------------------
6----------------------------------------------
         (2 раза)

   C      Em   Am       G  C        Em   Am
В Венгрии, один мужик решил, приколоться над своей женой.
C   Em   Am     G        C
Он сделал вид, что будто бы повесился.
 G     Am G  C   G    Am   G   C
Входит жена и увидав весящего мужа упала в обморок.
   Em   Am G
Большой облом.
     припев
      Dm          Em         C   Em Am G
   Я знаю что глупая смерть очень смешна! А-а-а-а!

А после, вошла бабуся, и увидав что.
Муж и жена, оба врезали дуба.
Пошла их грабить, и выйдя из комнаты.
Повешенный мужик, отпустил бабусе пинок.
     припев
   Бабуся умерла от удивленья! А-а-а-а!

Охотник стрелял в оленя.
Олень упал, со скалы.
И прямо на охотника.
И от этого, погиб охотник, в общем они погибли оба.
     припев
   Вот такая вот глупая смерть! А-а-а-а!
Расскажи всем! не жалей аккордов :)

Похожие песни под гитару:

Добавить комментарий

Защитный код
Обновить