Сплин - Весь этот бред

Песня "Сплин - Весь этот бред" с аккордами для гитары.

Добавить
в сборник
куплет1
e |-----------------------------------------------------|
B |--------------1--------------------------------------|
G |----0---------0---------0---------2----------0--000-0|
D |----2-------2----2------0---------0----------2--222-2| 
A |--2----2--3-----------2----2----0----0-----2----222--|
E |0-------------------3---------2----------0-----------|

e |-----------------------------------------------|
B |----1------------------------------------------|
G |----0-------------0---------2----------0----00-|
D |--2----2-222------0---------0----------2----22-| 
A |3---------------2----2----0----0-----2-----2---|
E |--------------3---------2----------0-----0-----|

Em      C       G             D/F#     Em
Я отключил телефон, завел на восемь будильник
C                 G              D/F#     Em
Я обьяснил тебе где в квартире спрятался душ

C              Am           C             Am   D7
Твои соленые слезы, кислые мины, душные речи,  о-оо
G      D/F#    Em           C         G   D/F#
 Я умираю со скуки когда меня кто-то лечит

Ты хороша как узор в прямоугольной бумаге
Вечнозеленый цветок и порошок в зеркалах

Ты так хороша, длинные пальцы, узкие джинсы, 
                                  шея и плечи, но-о
Я умираю со скуки, когда меня кто-то лечит
C              G    D/F#        Em C G D/F#
Я ненавижу когда меня кто-то...

Гадай на картах таро и что осталось от кофе
Не продырявь мне башку взглядом внимательных глаз
Твои соленые слезы, кислые мины, душные речи, 
                                     весь этот бред
Я умираю со скуки, когда меня кто-то лечит
Я умираю со скуки, когда меня кто-то лечит
Я ненавижу когда меня кто-то ..

Расскажи всем! не жалей аккордов :)

Похожие подборы аккордов: