Сплин - Сломано все

Песня "Сплин - Сломано все" с аккордами для гитары.

Добавить в сборник
Вступление и основной риф (Березовский):
 
--------------------------------------------------|
8-6-----5--5-6-5---8-6-----5--5-6-5---8-6-----5---|
7-------6----------7-------6----------7-------6---|
--------7------------------7------------------7---|  
---------------------------------------------------|
---------------------------------------------------|

------------------------|
--5-6-5---5-----5-------|
----------5-------6-----|
----------7---------7---|  
------------------------|
------------------------|

Dm                D
Сколько пройдено верст
  Dm                   D
Сколько пройдено верст
  Dm         D Dm           D
Сломано все,   разрушено все
          Am   
Сломано все...

Тихо падать в песок
С криком идти сквозь песок
Сломано все, разрушено все
Сломано все...

Сколько выпало звезд
Сколько выпало звезд
Выпало звезд...
Бог мой это лишь сон
Бог мой какой страшный сон
Сломано все, разрушено все
Сломано все.
Расскажи всем! не жалей аккордов :)

Похожие песни под гитару:

Добавить комментарий

Защитный код
Обновить